Cart
cload
Checkout Secure

Got a Question? WhatsApp Us

Phone Icon +1(307) 218-3226

Children's Socks Shoes Spring Autumn Fashion Casual Kids Sneakers Boys

Your Price:
$45.20 $70.20
You save: $25.00 (36%)

Color

Shoe Size

Quantity

- +
Add to wishlist
Checkout Secure
Order in the next to get it by
Only 3 left! .. people are viewing this, and 3 recently purchased it

10% Extra Off (Limited Time offer):

Coupon Code: Welcome10

Note: Please choose size carefully according to your country. If you are not sure about size then please contact us VIA "Chat with Us" Button on bottom of this page for quick reply for assistance.

Free Shipping (15 - 18 estimated Business Days)

Sizes mentioned on product detail page are product size not body size.

SPECIFICATIONS

Upper Material: Cotton Fabric

Season: Spring & Autumn

Pattern Type: Solid

Outsole Material: Rubber

Origin: CN(Origin)

Lining Material: Cotton Fabric

Item Type: casual shoes

Insole Material: Rubber

Gender: Unisex

Fit: Fits true to size, take your normal size

Feature: Breathable

Department Name: Children

Closure Type: Slip-On

Age Range: 25-36m

Age Range: 13-24m

Age Range: 7-12m

Specifications:
Outsole Material:Rubber
Gender:Unisex
Upper Material:Fly Knit
Closure Type:Slip-On
Feature:Lighted
Color:Black, yellow, white
Pattern Type:Solid
Fit:Fits true to size, take your normal size
Season:Spring/Autumn/Winter
Age Range:1-6T

Size Chart:
Size---US--------UK-------Interength-----------Age
21-----6.5--------5.5-------13cm/5.11---------16-18M
22-----7----------6--------13.5cm/5.31-------18-24M
23-----8----------7--------14cm/5.51----------2T
24-----8.5--------7.5------14.5cm/5.70--------2.5T
25-----9-----------8-------15cm/5.90----------3T
26-----9.5-10----8.5-9-----15.8cm/6.22-------3.5T
27-----10.5-------9.5------16.3cm/6.41--------4T
28-----11.5------10.5------16.8cm/6.61-------4.5T
29-----12.5------11.5------17.3cm/6.81-------5T
30-----12.5------11.5------18cm/7.08---------6T

 

Description

SPECIFICATIONS

Upper Material: Cotton Fabric

Season: Spring & Autumn

Pattern Type: Solid

Outsole Material: Rubber

Origin: CN(Origin)

Lining Material: Cotton Fabric

Item Type: casual shoes

Insole Material: Rubber

Gender: Unisex

Fit: Fits true to size, take your normal size

Feature: Breathable

Department Name: Children

Closure Type: Slip-On

Age Range: 25-36m

Age Range: 13-24m

Age Range: 7-12m

Specifications:
Outsole Material:Rubber
Gender:Unisex
Upper Material:Fly Knit
Closure Type:Slip-On
Feature:Lighted
Color:Black, yellow, white
Pattern Type:Solid
Fit:Fits true to size, take your normal size
Season:Spring/Autumn/Winter
Age Range:1-6T

Size Chart:
Size---US--------UK-------Interength-----------Age
21-----6.5--------5.5-------13cm/5.11---------16-18M
22-----7----------6--------13.5cm/5.31-------18-24M
23-----8----------7--------14cm/5.51----------2T
24-----8.5--------7.5------14.5cm/5.70--------2.5T
25-----9-----------8-------15cm/5.90----------3T
26-----9.5-10----8.5-9-----15.8cm/6.22-------3.5T
27-----10.5-------9.5------16.3cm/6.41--------4T
28-----11.5------10.5------16.8cm/6.61-------4.5T
29-----12.5------11.5------17.3cm/6.81-------5T
30-----12.5------11.5------18cm/7.08---------6T

 

Children's Socks Shoes Spring Autumn Fashion Casual Kids Sneakers Boys

Children's Socks Shoes Spring Autumn Fashion Casual Kids Sneakers Boys

$45.20 $70.20

Color

Shoe Size

Quantity

- +
Add to wishlist
Children's Socks Shoes Spring Autumn Fashion Casual Kids Sneakers Boys

Children's Socks Shoes Spring Autumn Fashion Casual Kids Sneakers Boys

Your Price:
$45.20 $70.20
You save: $25.00 (36%)

Color

Shoe Size

Recently viewed products